Plus 44 - No It Isn't:

Cappo on 2nd fret.

Intro and Verse
|------------------------------------------------------------------|
|-0-0-0-0-0-0--0-0-0-0-0-0--0-0-0-0-0-0-0-0-0-0-0-0--0-0-0-0-0-0-0-|
|-0-0-0-0-0-0--0-0-0-0-0-0--0-0-0-0-0-0-0-0-0-0-0-0--0-0-0-0-0-0-0-|
|-2-2-2-2-2-2--2-2-2-2-2-2--5-5-5-5-5-5-5-5-5-5-5-5--0-0-0-0-0-0-0-|
|-2-2-2-2-2-2--2-2-2-2-2-2--3-3-3-3-3-3-3-3-3-3-3-3--5-5-5-5-5-5-5-|
|-0-0-0-0-0-0--0-0-0-0-0-0---------------------------3-3-3-3-3-3-3-|


|---------------------------------------|
|-0-0-0-0-0--0-0-0-0-0-0-0-0-0-0-0-0----|
|-0-0-0-0-0--0-0-0-0-0-0-0-0-0-0-0-0----|
|-0-0-0-0-0--7-7-7-7-7-7-7-7-7-7-7-7----|
|-5-5-5-5-5--5-5-5-5-5-5-5-5-5-5-5-5----|
|-3-3-3-3-3-----------------------------|

Chorus
|------------------------------------------------------------------|
|-0-0-0-0-0-0-0-0-0-0-0-0-0-0-0-0-0-0-0-0-0-0-0-0-0-0-0-0-0-0-0----|
|-0-0-0-0-0-0-0-0-0-0-0-0-0-0-0-0-0-0-0-0-0-0-0-0-0-0-0-0-0-0-0----|
|-2-2-2-2-2-2-2-2-2-2-2-2-4-5-5-5-5-5-5-5-5-5-5-5-5-2-2-2-2-2-2----|
|-0-0-0-0-0-0-0-0-0-0-0-0-2-3-3-3-3-3-3-3-3-3-3-3-3-2-2-2-2-2-2----|
|---------------------------------------------------0-0-0-0-0-0----|


|-----------------------------------------|
|-0-0-0-0-0-0--0-0-0-0-0-0-0-0-0-0-0-0----|
|-0-0-0-0-0-0--0-0-0-0-0-0-0-0-0-0-0-0----|
|-7-7-7-7-7-7--5-5-5-5-5-5-5-5-5-5-5-5----|
|-5-5-5-5-5-5--3-3-3-3-3-3-3-3-3-3-3-3----|
|-----------------------------------------|

Break
|-----------------------------------------------------------------------|
|-0-0-0-0-0-0-0-0-0-0-0-0-0-0-0-0-0-0-0-0-0-0-0-0-0-0-0-0-0-0-0-0-0-0-0-|
|-0-0-0-0-0-0-0-0-0-0-0-0-0-0-0-0-0-0-0-0-0-0-0-0-0-0-0-0-0-0-0-0-0-0-0-|
|-0-0-0-0-0-0-0-0-0-0-0-0-2-2-2-2-2-2-2-2-2-2-2-2-5-5-5-5-5-5-5-5-5-5-5-|
|-5-5-5-5-5-5-5-5-5-5-5-5-0-0-0-0-0-0-0-0-0-0-0-0-3-3-3-3-3-3-3-3-3-3-3-|
|-3-3-3-3-3-3-3-3-3-3-3-3-----------------------------------------------|

Chorus with drums is the same thing, but without the open G and B Strings.